ISO-10303-21;
HEADER;
FILE_DESCRIPTION (( 'STEP AP203' ),
    '1' );
FILE_NAME ('QB-CTZQWP-50.8-1550-M.STEP',
    '2020-12-24T01:52:43',
    ( '' ),
    ( '' ),
    'SwSTEP 2.0',
    'SolidWorks 2020',
    '' );
FILE_SCHEMA (( 'CONFIG_CONTROL_DESIGN' ));
ENDSEC;

DATA;
#1 = APPROVAL ( #168, 'UNSPECIFIED' ) ;
#2 =( NAMED_UNIT ( * ) PLANE_ANGLE_UNIT ( ) SI_UNIT ( $, .RADIAN. ) );
#3 = DIRECTION ( 'NONE',  ( -1.000000000000000000, -0.000000000000000000, -0.000000000000000000 ) ) ;
#4 =( NAMED_UNIT ( * ) SI_UNIT ( $, .STERADIAN. ) SOLID_ANGLE_UNIT ( ) );
#5 = EDGE_CURVE ( 'NONE', #76, #78, #158, .T. ) ;
#6 = DIRECTION ( 'NONE',  ( -1.000000000000000000, -0.000000000000000000, -0.000000000000000000 ) ) ;
#7 = EDGE_LOOP ( 'NONE', ( #129, #50, #80, #162 ) ) ;
#8 = DATE_AND_TIME ( #123, #151 ) ;
#9 = CARTESIAN_POINT ( 'NONE',  ( -3.000000000000002665, 0.000000000000000000, 0.000000000000000000 ) ) ;
#10 = DATE_TIME_ROLE ( 'classification_date' ) ;
#11 = DATE_AND_TIME ( #159, #83 ) ;
#12 = ORIENTED_EDGE ( 'NONE', *, *, #100, .T. ) ;
#13 = EDGE_CURVE ( 'NONE', #78, #23, #169, .T. ) ;
#14 = LOCAL_TIME ( 9, 52, 43.00000000000000000, #108 ) ;
#15 = CARTESIAN_POINT ( 'NONE',  ( 3.000000000000002665, 0.000000000000000000, 0.000000000000000000 ) ) ;
#16 = DIRECTION ( 'NONE',  ( -1.000000000000000000, -0.000000000000000000, -0.000000000000000000 ) ) ;
#17 = DESIGN_CONTEXT ( 'detailed design', #20, 'design' ) ;
#18 = MECHANICAL_CONTEXT ( 'NONE', #165, 'mechanical' ) ;
#19 = DIRECTION ( 'NONE',  ( -1.000000000000000000, -0.000000000000000000, -0.000000000000000000 ) ) ;
#20 = APPLICATION_CONTEXT ( 'configuration controlled 3d designs of mechanical parts and assemblies' ) ;
#21 = CC_DESIGN_PERSON_AND_ORGANIZATION_ASSIGNMENT ( #35, #92, ( #79 ) ) ;
#22 = DATE_AND_TIME ( #38, #29 ) ;
#23 = VERTEX_POINT ( 'NONE', #94 ) ;
#24 = APPROVAL_STATUS ( 'not_yet_approved' ) ;
#25 = PERSON_AND_ORGANIZATION_ROLE ( 'design_supplier' ) ;
#26 = DATE_TIME_ROLE ( 'creation_date' ) ;
#27 = DIRECTION ( 'NONE',  ( -1.000000000000000000, -0.000000000000000000, -0.000000000000000000 ) ) ;
#28 = CC_DESIGN_SECURITY_CLASSIFICATION ( #79, ( #99 ) ) ;
#29 = LOCAL_TIME ( 9, 52, 43.00000000000000000, #52 ) ;
#30 = DIRECTION ( 'NONE',  ( -1.000000000000000000, -0.000000000000000000, -0.000000000000000000 ) ) ;
#31 = CARTESIAN_POINT ( 'NONE',  ( 3.000000000000002665, 0.000000000000000000, 0.000000000000000000 ) ) ;
#32 = CARTESIAN_POINT ( 'NONE',  ( 3.000000000000002665, 0.000000000000000000, 25.39999999999999858 ) ) ;
#33 = AXIS2_PLACEMENT_3D ( 'NONE', #133, #34, #166 ) ;
#34 = DIRECTION ( 'NONE',  ( -1.000000000000000000, -0.000000000000000000, -0.000000000000000000 ) ) ;
#35 = PERSON_AND_ORGANIZATION ( #46, #44 ) ;
#36 = SHAPE_DEFINITION_REPRESENTATION ( #102, #85 ) ;
#37 = PRODUCT_DEFINITION ( 'UNKNOWN', '', #99, #17 ) ;
#38 = CALENDAR_DATE ( 2020, 24, 12 ) ;
#39 = LINE ( 'NONE', #97, #107 ) ;
#40 = PERSON_AND_ORGANIZATION_ROLE ( 'design_owner' ) ;
#41 = ORIENTED_EDGE ( 'NONE', *, *, #100, .F. ) ;
#42 = EDGE_CURVE ( 'NONE', #136, #23, #39, .T. ) ;
#43 = APPLICATION_PROTOCOL_DEFINITION ( 'international standard', 'config_control_design', 1994, #165 ) ;
#44 = ORGANIZATION ( 'UNSPECIFIED', 'UNSPECIFIED', '' ) ;
#45 = FACE_OUTER_BOUND ( 'NONE', #163, .T. ) ;
#46 = PERSON ( 'UNSPECIFIED', 'UNSPECIFIED', 'UNSPECIFIED', ('UNSPECIFIED'), ('UNSPECIFIED'), ('UNSPECIFIED') ) ;
#47 = DIRECTION ( 'NONE',  ( 0.000000000000000000, 0.000000000000000000, 1.000000000000000000 ) ) ;
#48 = DIRECTION ( 'NONE',  ( 1.000000000000000000, 0.000000000000000000, 0.000000000000000000 ) ) ;
#49 = LOCAL_TIME ( 9, 52, 43.00000000000000000, #118 ) ;
#50 = ORIENTED_EDGE ( 'NONE', *, *, #130, .T. ) ;
#51 = DATE_AND_TIME ( #137, #14 ) ;
#52 = COORDINATED_UNIVERSAL_TIME_OFFSET ( 8, 0, .AHEAD. ) ;
#53 = ORIENTED_EDGE ( 'NONE', *, *, #173, .T. ) ;
#54 = VECTOR ( 'NONE', #160, 1000.000000000000000 ) ;
#55 = CIRCLE ( 'NONE', #33, 25.39999999999999858 ) ;
#56 = APPROVAL_ROLE ( '' ) ;
#57 = EDGE_LOOP ( 'NONE', ( #12, #122, #139, #58 ) ) ;
#58 = ORIENTED_EDGE ( 'NONE', *, *, #42, .F. ) ;
#59 = CLOSED_SHELL ( 'NONE', ( #90, #128, #64, #148 ) ) ;
#60 = APPROVAL ( #24, 'UNSPECIFIED' ) ;
#61 = AXIS2_PLACEMENT_3D ( 'NONE', #15, #16, #115 ) ;
#62 =( LENGTH_UNIT ( ) NAMED_UNIT ( * ) SI_UNIT ( .MILLI., .METRE. ) );
#63 = DIRECTION ( 'NONE',  ( 0.000000000000000000, 0.000000000000000000, 1.000000000000000000 ) ) ;
#64 = ADVANCED_FACE ( 'NONE', ( #45 ), #106, .F. ) ;
#65 = APPROVAL_DATE_TIME ( #11, #1 ) ;
#66 = SECURITY_CLASSIFICATION_LEVEL ( 'unclassified' ) ;
#67 = PERSON_AND_ORGANIZATION ( #46, #44 ) ;
#68 = APPROVAL_STATUS ( 'not_yet_approved' ) ;
#69 = PRODUCT ( 'QB-CTZQWP-50.8-1550-M', 'QB-CTZQWP-50.8-1550-M', '', ( #18 ) ) ;
#70 = APPROVAL_PERSON_ORGANIZATION ( #93, #60, #56 ) ;
#71 = CYLINDRICAL_SURFACE ( 'NONE', #142, 25.39999999999999858 ) ;
#72 = DIRECTION ( 'NONE',  ( 1.000000000000000000, 0.000000000000000000, 0.000000000000000000 ) ) ;
#73 = FACE_OUTER_BOUND ( 'NONE', #57, .T. ) ;
#74 = AXIS2_PLACEMENT_3D ( 'NONE', #9, #27, #117 ) ;
#75 = CARTESIAN_POINT ( 'NONE',  ( -3.000000000000002665, 3.110602869834276865E-15, -25.39999999999999858 ) ) ;
#76 = VERTEX_POINT ( 'NONE', #91 ) ;
#77 = CALENDAR_DATE ( 2020, 24, 12 ) ;
#78 = VERTEX_POINT ( 'NONE', #75 ) ;
#79 = SECURITY_CLASSIFICATION ( '', '', #66 ) ;
#80 = ORIENTED_EDGE ( 'NONE', *, *, #42, .T. ) ;
#81 = PERSON_AND_ORGANIZATION ( #46, #44 ) ;
#82 = PERSON_AND_ORGANIZATION ( #46, #44 ) ;
#83 = LOCAL_TIME ( 9, 52, 43.00000000000000000, #141 ) ;
#84 = CC_DESIGN_PERSON_AND_ORGANIZATION_ASSIGNMENT ( #149, #25, ( #99 ) ) ;
#85 = ADVANCED_BREP_SHAPE_REPRESENTATION ( 'QB-CTZQWP-50.8-1550-M', ( #174, #87 ), #155 ) ;
#86 = DIRECTION ( 'NONE',  ( -0.000000000000000000, 0.000000000000000000, 1.000000000000000000 ) ) ;
#87 = AXIS2_PLACEMENT_3D ( 'NONE', #135, #114, #48 ) ;
#88 = CARTESIAN_POINT ( 'NONE',  ( -3.000000000000000000, 0.000000000000000000, 0.000000000000000000 ) ) ;
#89 = DIRECTION ( 'NONE',  ( 0.000000000000000000, 0.000000000000000000, -1.000000000000000000 ) ) ;
#90 = ADVANCED_FACE ( 'NONE', ( #73 ), #134, .T. ) ;
#91 = CARTESIAN_POINT ( 'NONE',  ( 3.000000000000002665, 3.110602869834276865E-15, -25.39999999999999858 ) ) ;
#92 = PERSON_AND_ORGANIZATION_ROLE ( 'classification_officer' ) ;
#93 = PERSON_AND_ORGANIZATION ( #46, #44 ) ;
#94 = CARTESIAN_POINT ( 'NONE',  ( -3.000000000000002665, 0.000000000000000000, 25.39999999999999858 ) ) ;
#95 = CC_DESIGN_APPROVAL ( #1, ( #37 ) ) ;
#96 = PERSON_AND_ORGANIZATION ( #46, #44 ) ;
#97 = CARTESIAN_POINT ( 'NONE',  ( -3.000000000000000000, 0.000000000000000000, 25.39999999999999858 ) ) ;
#98 = PERSON_AND_ORGANIZATION_ROLE ( 'creator' ) ;
#99 = PRODUCT_DEFINITION_FORMATION_WITH_SPECIFIED_SOURCE ( 'ANY', '', #69, .NOT_KNOWN. ) ;
#100 = EDGE_CURVE ( 'NONE', #136, #76, #171, .T. ) ;
#101 = PRODUCT_RELATED_PRODUCT_CATEGORY ( 'detail', '', ( #69 ) ) ;
#102 = PRODUCT_DEFINITION_SHAPE ( 'NONE', 'NONE',  #37 ) ;
#103 = PLANE ( 'NONE',  #110 ) ;
#104 = CC_DESIGN_PERSON_AND_ORGANIZATION_ASSIGNMENT ( #82, #40, ( #69 ) ) ;
#105 = DIRECTION ( 'NONE',  ( -1.000000000000000000, 0.000000000000000000, -0.000000000000000000 ) ) ;
#106 = PLANE ( 'NONE',  #124 ) ;
#107 = VECTOR ( 'NONE', #30, 1000.000000000000000 ) ;
#108 = COORDINATED_UNIVERSAL_TIME_OFFSET ( 8, 0, .AHEAD. ) ;
#109 = PERSON_AND_ORGANIZATION_ROLE ( 'creator' ) ;
#110 = AXIS2_PLACEMENT_3D ( 'NONE', #154, #72, #89 ) ;
#111 = ORIENTED_EDGE ( 'NONE', *, *, #130, .F. ) ;
#112 = CC_DESIGN_PERSON_AND_ORGANIZATION_ASSIGNMENT ( #127, #109, ( #99 ) ) ;
#113 = CC_DESIGN_APPROVAL ( #60, ( #79 ) ) ;
#114 = DIRECTION ( 'NONE',  ( 0.000000000000000000, 0.000000000000000000, 1.000000000000000000 ) ) ;
#115 = DIRECTION ( 'NONE',  ( 0.000000000000000000, 0.000000000000000000, 1.000000000000000000 ) ) ;
#116 = APPROVAL_PERSON_ORGANIZATION ( #81, #1, #161 ) ;
#117 = DIRECTION ( 'NONE',  ( 0.000000000000000000, 0.000000000000000000, 1.000000000000000000 ) ) ;
#118 = COORDINATED_UNIVERSAL_TIME_OFFSET ( 8, 0, .AHEAD. ) ;
#119 = CARTESIAN_POINT ( 'NONE',  ( -3.000000000000000000, 3.110602869834276865E-15, -25.39999999999999858 ) ) ;
#120 = APPROVAL ( #68, 'UNSPECIFIED' ) ;
#121 = DATE_AND_TIME ( #77, #49 ) ;
#122 = ORIENTED_EDGE ( 'NONE', *, *, #5, .T. ) ;
#123 = CALENDAR_DATE ( 2020, 24, 12 ) ;
#124 = AXIS2_PLACEMENT_3D ( 'NONE', #145, #105, #86 ) ;
#125 = EDGE_LOOP ( 'NONE', ( #53, #140 ) ) ;
#126 = CIRCLE ( 'NONE', #61, 25.39999999999999858 ) ;
#127 = PERSON_AND_ORGANIZATION ( #46, #44 ) ;
#128 = ADVANCED_FACE ( 'NONE', ( #144 ), #71, .T. ) ;
#129 = ORIENTED_EDGE ( 'NONE', *, *, #5, .F. ) ;
#130 = EDGE_CURVE ( 'NONE', #76, #136, #126, .T. ) ;
#131 = CC_DESIGN_APPROVAL ( #120, ( #99 ) ) ;
#132 = CC_DESIGN_DATE_AND_TIME_ASSIGNMENT ( #8, #26, ( #37 ) ) ;
#133 = CARTESIAN_POINT ( 'NONE',  ( -3.000000000000002665, 0.000000000000000000, 0.000000000000000000 ) ) ;
#134 = CYLINDRICAL_SURFACE ( 'NONE', #138, 25.39999999999999858 ) ;
#135 = CARTESIAN_POINT ( 'NONE',  ( 0.000000000000000000, 0.000000000000000000, 0.000000000000000000 ) ) ;
#136 = VERTEX_POINT ( 'NONE', #32 ) ;
#137 = CALENDAR_DATE ( 2020, 24, 12 ) ;
#138 = AXIS2_PLACEMENT_3D ( 'NONE', #146, #3, #47 ) ;
#139 = ORIENTED_EDGE ( 'NONE', *, *, #173, .F. ) ;
#140 = ORIENTED_EDGE ( 'NONE', *, *, #13, .T. ) ;
#141 = COORDINATED_UNIVERSAL_TIME_OFFSET ( 8, 0, .AHEAD. ) ;
#142 = AXIS2_PLACEMENT_3D ( 'NONE', #88, #6, #153 ) ;
#143 = AXIS2_PLACEMENT_3D ( 'NONE', #31, #19, #63 ) ;
#144 = FACE_OUTER_BOUND ( 'NONE', #7, .T. ) ;
#145 = CARTESIAN_POINT ( 'NONE',  ( 3.000000000000001332, 25.39999999999999858, 0.000000000000000000 ) ) ;
#146 = CARTESIAN_POINT ( 'NONE',  ( -3.000000000000000000, 0.000000000000000000, 0.000000000000000000 ) ) ;
#147 = APPROVAL_DATE_TIME ( #22, #120 ) ;
#148 = ADVANCED_FACE ( 'NONE', ( #152 ), #103, .F. ) ;
#149 = PERSON_AND_ORGANIZATION ( #46, #44 ) ;
#150 = CC_DESIGN_PERSON_AND_ORGANIZATION_ASSIGNMENT ( #67, #98, ( #37 ) ) ;
#151 = LOCAL_TIME ( 9, 52, 43.00000000000000000, #156 ) ;
#152 = FACE_OUTER_BOUND ( 'NONE', #125, .T. ) ;
#153 = DIRECTION ( 'NONE',  ( 0.000000000000000000, 0.000000000000000000, 1.000000000000000000 ) ) ;
#154 = CARTESIAN_POINT ( 'NONE',  ( -3.000000000000001332, 25.39999999999999858, 0.000000000000000000 ) ) ;
#155 =( GEOMETRIC_REPRESENTATION_CONTEXT ( 3 ) GLOBAL_UNCERTAINTY_ASSIGNED_CONTEXT ( ( #164 ) ) GLOBAL_UNIT_ASSIGNED_CONTEXT ( ( #62, #2, #4 ) ) REPRESENTATION_CONTEXT ( 'NONE', 'WORKASPACE' ) );
#156 = COORDINATED_UNIVERSAL_TIME_OFFSET ( 8, 0, .AHEAD. ) ;
#157 = APPROVAL_DATE_TIME ( #51, #60 ) ;
#158 = LINE ( 'NONE', #119, #54 ) ;
#159 = CALENDAR_DATE ( 2020, 24, 12 ) ;
#160 = DIRECTION ( 'NONE',  ( -1.000000000000000000, -0.000000000000000000, -0.000000000000000000 ) ) ;
#161 = APPROVAL_ROLE ( '' ) ;
#162 = ORIENTED_EDGE ( 'NONE', *, *, #13, .F. ) ;
#163 = EDGE_LOOP ( 'NONE', ( #41, #111 ) ) ;
#164 = UNCERTAINTY_MEASURE_WITH_UNIT (LENGTH_MEASURE( 1.000000000000000082E-05 ), #62, 'distance_accuracy_value', 'NONE');
#165 = APPLICATION_CONTEXT ( 'configuration controlled 3d designs of mechanical parts and assemblies' ) ;
#166 = DIRECTION ( 'NONE',  ( 0.000000000000000000, 0.000000000000000000, 1.000000000000000000 ) ) ;
#167 = APPLICATION_PROTOCOL_DEFINITION ( 'international standard', 'config_control_design', 1994, #20 ) ;
#168 = APPROVAL_STATUS ( 'not_yet_approved' ) ;
#169 = CIRCLE ( 'NONE', #74, 25.39999999999999858 ) ;
#170 = APPROVAL_ROLE ( '' ) ;
#171 = CIRCLE ( 'NONE', #143, 25.39999999999999858 ) ;
#172 = CC_DESIGN_DATE_AND_TIME_ASSIGNMENT ( #121, #10, ( #79 ) ) ;
#173 = EDGE_CURVE ( 'NONE', #23, #78, #55, .T. ) ;
#174 = MANIFOLD_SOLID_BREP ( 'Ðý×', #59 ) ;
#175 = APPROVAL_PERSON_ORGANIZATION ( #96, #120, #170 ) ;
ENDSEC;
END-ISO-10303-21;
